Васильев Александр - Романс

Этот вариант подобран с Нашествия 2003.

Каподастр на III лад ОБЯЗАТЕЛЬНО!!!
Вся песня играется следующим перебором:

E Am

e|------------------|----------------0---|
H|-------0-----0----|--------0h1---------|
G|---------------1--|------2-------2-----|
D|-----2-----2------|----2-------2-----2-|
A|---2-----2--------|--0-----------------|
E|-0----------------|--------------------|

E Am

e|------------------|----------------0---|
H|-------0-----0----|--------0h1---------|
G|---------------1--|------2-------2---2-|
D|-----2-----2------|----2-------2-------|
A|---2-----2--------|--0-----------------|
E|-0----------------|--------------------|

Dm C

e|-------0h1-----1----|----------------0---|
H|-----3-------3------|--------0h1---------|
G|---2-------2--------|------0-------0-----|
D|-0---------------0--|----2-------2-----2-|
A|--------------------|--3-----------------|
E|--------------------|--------------------|

Dm C Am

e|-------0-----------|----------------0---|
H|-----3----------1--|--------0h1---------|
G|---2----------0----|------2-------2-----|
D|-0----------2------|----2-------2-----2-|
A|----------3--------|--0-----------------|
E|----------0--------|--------------------|

И лампа не горит,
И врут календари,
И если ты давно хотела что-то мне сказать,
То говори.

Любой обманчив звук,
Страшнее тишина,
Когда в самый разгар веселья падает из рук,
Бокал вина.

И черный кабинет,
И ждет в стволе патрон,
Так тихо, что я слышу, как идёт на глубине,
Вагон метро.

На площади полки,
Темно в конце строки,
И в телефонной трубке этим много лет спустя,
Одни гудки.

И где-то хлопнет дверь,
И дрогнут провода,
Привет! Мы будем счастливы теперь,
И навсегда.
Привет! Мы будем счастливы теперь,
И навсегда.


~M.[i].X~
mixmaster@bk.ru

Прислал(а): Алексей_134 / alexkorovkin@mail.ru.

Другие аккорды Васильев Александр:

Миллион - Соседка
28 минут назад 5,607 0
Азъ - Гопники
6 часов назад 5,473 0
Васильев Александр - Мне 20 лет
25 минут назад 4,299 0
Васильев Александр - Романс
прямо сейчас 4,102 0

Тексты песен Васильев Александр:

Lil'M - Она знает
10 часов назад 2,374 (не задано)
Don't Smoke - Вирус Эмо
4 часа назад 2,405 (не задано)
Sexion D'assaunt - Desole
4 часа назад 2,087 (не задано)
Plain White T's - Sad story
4 часа назад 2,161 (не задано)
Di'FenS - Любовь по интернету
13 часов назад 1,916 (не задано)
Lil' Kim - Magic Stick (ft. 50 Cent)
10 часов назад 1,873 (не задано)
Lil' Kim - Lighters Up
10 часов назад 1,870 (не задано)
Lil' Kim - Lady Marmalade
10 часов назад 1,853 (не задано)